  0
SECTION
  2
HEADER
  9
$ACADVER
  1
AC1009
  9
$INSBASE
 10
-10.264086889403499
 20
52.459980851225517
 30
0.0
  9
$EXTMIN
 10
-10.2650868894035
 20
44.44314567866769
 30
0.0
  9
$EXTMAX
 10
0.2566115111269292
 20
52.460980851225521
 30
0.0
  9
$LIMMIN
 10
-1.0
 20
-1.0
  9
$LIMMAX
 10
18.0
 20
12.0
  9
$ORTHOMODE
 70
     1
  9
$REGENMODE
 70
     1
  9
$FILLMODE
 70
     1
  9
$QTEXTMODE
 70
     0
  9
$MIRRTEXT
 70
     1
  9
$DRAGMODE
 70
     2
  9
$LTSCALE
 40
0.5
  9
$OSMODE
 70
     0
  9
$ATTMODE
 70
     1
  9
$TEXTSIZE
 40
0.06
  9
$TRACEWID
 40
0.05
  9
$TEXTSTYLE
  7
STANDARD
  9
$CLAYER
  8
0
  9
$CELTYPE
  6
BYLAYER
  9
$CECOLOR
 62
     7
  9
$DIMSCALE
 40
1.0
  9
$DIMASZ
 40
0.18
  9
$DIMEXO
 40
0.0625
  9
$DIMDLI
 40
0.38
  9
$DIMRND
 40
0.0
  9
$DIMDLE
 40
0.0
  9
$DIMEXE
 40
0.18
  9
$DIMTP
 40
0.0
  9
$DIMTM
 40
0.0
  9
$DIMTXT
 40
0.18
  9
$DIMCEN
 40
0.09
  9
$DIMTSZ
 40
0.0
  9
$DIMTOL
 70
     0
  9
$DIMLIM
 70
     0
  9
$DIMTIH
 70
     1
  9
$DIMTOH
 70
     1
  9
$DIMSE1
 70
     0
  9
$DIMSE2
 70
     0
  9
$DIMTAD
 70
     0
  9
$DIMZIN
 70
     0
  9
$DIMBLK
  1

  9
$DIMASO
 70
     1
  9
$DIMSHO
 70
     0
  9
$DIMPOST
  1

  9
$DIMAPOST
  1

  9
$DIMALT
 70
     0
  9
$DIMALTD
 70
     2
  9
$DIMALTF
 40
25.399999999999999
  9
$DIMLFAC
 40
1.0
  9
$DIMTOFL
 70
     0
  9
$DIMTVP
 40
0.0
  9
$DIMTIX
 70
     0
  9
$DIMSOXD
 70
     0
  9
$DIMSAH
 70
     0
  9
$DIMBLK1
  1

  9
$DIMBLK2
  1

  9
$DIMSTYLE
  2
STANDARD
  9
$DIMCLRD
 70
     0
  9
$DIMCLRE
 70
     0
  9
$DIMCLRT
 70
     0
  9
$DIMTFAC
 40
1.0
  9
$DIMGAP
 40
0.09
  9
$LUNITS
 70
     2
  9
$LUPREC
 70
     3
  9
$SKETCHINC
 40
0.1
  9
$FILLETRAD
 40
0.0
  9
$AUNITS
 70
     0
  9
$AUPREC
 70
     0
  9
$MENU
  1
acad
  9
$ELEVATION
 40
0.0
  9
$PELEVATION
 40
0.0
  9
$THICKNESS
 40
0.0
  9
$LIMCHECK
 70
     0
  9
$BLIPMODE
 70
     0
  9
$CHAMFERA
 40
0.15
  9
$CHAMFERB
 40
0.15
  9
$SKPOLY
 70
     0
  9
$TDCREATE
 40
2450290.8609736101
  9
$TDUPDATE
 40
2453966.5936109261
  9
$TDINDWG
 40
0.0891525694
  9
$TDUSRTIMER
 40
0.0891525694
  9
$USRTIMER
 70
     1
  9
$ANGBASE
 50
0.0
  9
$ANGDIR
 70
     0
  9
$PDMODE
 70
     0
  9
$PDSIZE
 40
0.0
  9
$PLINEWID
 40
0.0
  9
$COORDS
 70
     1
  9
$SPLFRAME
 70
     0
  9
$SPLINETYPE
 70
     6
  9
$SPLINESEGS
 70
     8
  9
$ATTDIA
 70
     0
  9
$ATTREQ
 70
     1
  9
$HANDLING
 70
  4097
  9
$HANDSEED
  5
407
  9
$SURFTAB1
 70
     6
  9
$SURFTAB2
 70
     6
  9
$SURFTYPE
 70
     6
  9
$SURFU
 70
     6
  9
$SURFV
 70
     6
  9
$UCSNAME
  2

  9
$UCSORG
 10
0.0
 20
0.0
 30
0.0
  9
$UCSXDIR
 10
1.0
 20
0.0
 30
0.0
  9
$UCSYDIR
 10
0.0
 20
1.0
 30
0.0
  9
$PUCSNAME
  2

  9
$PUCSORG
 10
0.0
 20
0.0
 30
0.0
  9
$PUCSXDIR
 10
1.0
 20
0.0
 30
0.0
  9
$PUCSYDIR
 10
0.0
 20
1.0
 30
0.0
  9
$USERI1
 70
     0
  9
$USERI2
 70
     0
  9
$USERI3
 70
     0
  9
$USERI4
 70
     0
  9
$USERI5
 70
     0
  9
$USERR1
 40
0.0
  9
$USERR2
 40
0.0
  9
$USERR3
 40
0.0
  9
$USERR4
 40
0.0
  9
$USERR5
 40
0.0
  9
$WORLDVIEW
 70
     1
  9
$SHADEDGE
 70
     3
  9
$SHADEDIF
 70
    70
  9
$TILEMODE
 70
     1
  9
$MAXACTVP
 70
    16
  9
$PLIMCHECK
 70
     0
  9
$PEXTMIN
 10
1.0000000000000000E+020
 20
1.0000000000000000E+020
 30
1.0000000000000000E+020
  9
$PEXTMAX
 10
-1.0000000000000000E+020
 20
-1.0000000000000000E+020
 30
-1.0000000000000000E+020
  9
$PLIMMIN
 10
0.0
 20
0.0
  9
$PLIMMAX
 10
12.0
 20
9.0
  9
$UNITMODE
 70
     0
  9
$VISRETAIN
 70
     0
  9
$PLINEGEN
 70
     0
  9
$PSLTSCALE
 70
     0
  0
ENDSEC
  0
SECTION
  2
TABLES
  0
TABLE
  2
VPORT
 70
     2
  0
VPORT
  2
*ACTIVE
 70
     0
 10
0.0
 20
0.0
 11
1.0
 21
1.0
 12
-4.917349276550488
 22
48.45267195821922
 13
0.0
 23
0.0
 14
0.0375
 24
0.0375
 15
0.15
 25
0.15
 16
0.0
 26
0.0
 36
1.0
 17
0.0
 27
0.0
 37
0.0
 40
8.1036441585569872
 41
1.7
 42
50.0
 43
0.0
 44
0.0
 50
0.0
 51
0.0
 71
     0
 72
   100
 73
     1
 74
     0
 75
     0
 76
     0
 77
     0
 78
     0
  0
ENDTAB
  0
TABLE
  2
LTYPE
 70
     1
  0
LTYPE
  2
CONTINUOUS
 70
     0
  3
Solid line
 72
    65
 73
     0
 40
0.0
  0
ENDTAB
  0
TABLE
  2
LAYER
 70
     1
  0
LAYER
  2
0
 70
     0
 62
     7
  6
CONTINUOUS
  0
ENDTAB
  0
TABLE
  2
STYLE
 70
     2
  0
STYLE
  2
STANDARD
 70
     0
 40
0.0
 41
1.0
 50
0.0
 71
     0
 42
0.06
  3
ROMANS.shx
  4

  0
STYLE
  2
ROMANT
 70
     0
 40
0.0
 41
0.7
 50
15.0
 71
     0
 42
0.1
  3
romant.shx
  4

  0
ENDTAB
  0
TABLE
  2
VIEW
 70
     0
  0
ENDTAB
  0
TABLE
  2
UCS
 70
     0
  0
ENDTAB
  0
TABLE
  2
APPID
 70
     1
  0
APPID
  2
ACAD
 70
     0
  0
ENDTAB
  0
TABLE
  2
DIMSTYLE
 70
     1
  0
DIMSTYLE
  2
STANDARD
 70
     0
  3

  4

  5

  6

  7

 40
1.0
 41
0.18
 42
0.0625
 43
0.38
 44
0.18
 45
0.0
 46
0.0
 47
0.0
 48
0.0
140
0.18
141
0.09
142
0.0
143
25.399999999999999
144
1.0
145
0.0
146
1.0
147
0.09
 71
     0
 72
     0
 73
     1
 74
     1
 75
     0
 76
     0
 77
     0
 78
     0
170
     0
171
     2
172
     0
173
     0
174
     0
175
     0
176
     0
177
     0
178
     0
  0
ENDTAB
  0
ENDSEC
  0
SECTION
  2
BLOCKS
  0
BLOCK
  8
0
 62
     7
  2
$MODEL_SPACE
 70
     0
 10
0.0
 20
0.0
 30
0.0
  3
$MODEL_SPACE
  1

  0
ENDBLK
  5
28
  8
0
 62
     7
  0
BLOCK
 67
     1
  8
0
 62
     7
  2
$PAPER_SPACE
 70
     0
 10
0.0
 20
0.0
 30
0.0
  3
$PAPER_SPACE
  1

  0
ENDBLK
  5
26
 67
     1
  8
0
 62
     7
  0
BLOCK
  8
0
  2
FUSE
 70
     0
 10
0.0
 20
0.0
 30
0.0
  3
FUSE
  1

  0
POLYLINE
  5
2C
  8
0
 66
     1
 10
0.0
 20
0.0
 30
0.0
 40
0.01
 41
0.01
  0
VERTEX
  5
2D9
  8
0
 10
0.1404259733037172
 20
-0.0362572477281269
 30
0.0
 42
-729.21476786238384
  0
VERTEX
  5
2DA
  8
0
 10
0.1406250000000035
 20
-0.0363092188706951
 30
0.0
 42
-0.7745966692415445
  0
VERTEX
  5
2DB
  8
0
 10
0.0
 20
0.0
 30
0.0
 42
0.7745966692414826
  0
VERTEX
  5
2DC
  8
0
 10
-0.1406250000000035
 20
0.0363092188706951
 30
0.0
 42
55.557718204395741
  0
VERTEX
  5
2DD
  8
0
 10
-0.1380376597728556
 20
0.0355408555931049
 30
0.0
 42
55.557718204395741
  0
SEQEND
  5
2DE
  8
0
  0
ENDBLK
  5
33
  8
0
  0
BLOCK
  8
0
  2
SPADETERM
 70
     0
 10
0.0
 20
0.0
 30
0.0
  3
SPADETERM
  1

  0
LINE
  5
35
  8
0
 62
     7
 10
0.0
 20
0.0
 30
0.0
 11
-0.0977862939819048
 21
0.0564569431535098
 31
0.0
  0
LINE
  5
36
  8
0
 62
     7
 10
-0.0977862939819048
 20
-0.0564569431535098
 30
0.0
 11
0.0
 21
0.0
 31
0.0
  0
LINE
  5
37
  8
0
 62
     7
 10
-0.0326916331211322
 20
-0.0564569431535098
 30
0.0
 11
0.0650946608607725
 21
0.0
 31
0.0
  0
LINE
  5
38
  8
0
 62
     7
 10
0.0650946608607725
 20
0.0
 30
0.0
 11
-0.0326916331211322
 21
0.0564569431535098
 31
0.0
  0
ENDBLK
  5
39
  8
0
  0
BLOCK
  8
0
  2
DOT
 70
     0
 10
0.0
 20
0.0
 30
0.0
  3
DOT
  1

  0
POLYLINE
  5
3B
  8
0
 62
     7
 66
     1
 10
0.0
 20
0.0
 30
0.0
 70
     1
 40
0.025
 41
0.025
  0
VERTEX
  5
2DF
  8
0
 62
     7
 10
-0.0124999999999993
 20
0.0
 30
0.0
 42
1.0
  0
VERTEX
  5
2E0
  8
0
 62
     7
 10
0.0124999999999993
 20
0.0
 30
0.0
 42
1.0
  0
SEQEND
  5
2E1
  8
0
 62
     7
  0
ENDBLK
  5
3F
  8
0
  0
BLOCK
  8
0
  2
G1
 70
     0
 10
0.0
 20
0.0
 30
0.0
  3
G1
  1

  0
POLYLINE
  5
41
  8
0
 66
     1
 10
0.0
 20
0.0
 30
0.0
 70
     1
  0
VERTEX
  5
2E2
  8
0
 10
-0.10814064147376
 20
0.0
 30
0.0
  0
VERTEX
  5
2E3
  8
0
 10
0.0
 20
-0.1873050853956357
 30
0.0
  0
VERTEX
  5
2E4
  8
0
 10
0.1081406414737529
 20
0.0
 30
0.0
  0
SEQEND
  5
2E5
  8
0
  0
TEXT
  5
46
  8
0
 10
-0.0496846761510909
 20
-0.0841146123587322
 30
0.0
 40
0.06
  1
G1
 72
     1
 11
0.0003153238489091
 21
-0.0841146123587322
 31
0.0
  0
ENDBLK
  5
48
  8
0
  0
BLOCK
  8
0
  2
BORDER
 70
     0
 10
0.0
 20
0.0
 30
0.0
  3
BORDER
  1

  0
LINE
  5
4A
  8
0
 62
     7
 10
7.385131347580983
 20
0.4431350173138782
 30
0.0
 11
7.385131347580983
 21
0.0050000000000026
 31
0.0
  0
LINE
  5
4B
  8
0
 62
     7
 10
4.8151108171741717
 20
0.4431350173138782
 30
0.0
 11
4.8151108171741583
 21
0.0050000000000026
 31
0.0
  0
POLYLINE
  5
4C
  8
0
 62
     3
 66
     1
 10
0.0
 20
0.0
 30
0.0
 70
     1
  0
VERTEX
  5
2E6
  8
0
 62
     3
 10
8.0000000000000036
 20
0.0050000000000026
 30
0.0
  0
VERTEX
  5
2E7
  8
0
 62
     3
 10
8.0000000000000036
 20
10.505000000000001
 30
0.0
  0
VERTEX
  5
2E8
  8
0
 62
     3
 10
0.5
 20
10.505000000000001
 30
0.0
  0
VERTEX
  5
2E9
  8
0
 62
     3
 10
0.5
 20
0.0050000000000026
 30
0.0
  0
SEQEND
  5
2EA
  8
0
 62
     3
  0
TEXT
  5
52
  8
0
 62
     7
 10
1.13710860027125
 20
0.1066417570973144
 30
0.0
 40
0.06
  1
C
  0
CIRCLE
  5
53
  8
0
 62
     7
 10
1.169448704250275
 20
0.1380289245141597
 30
0.0
 40
0.0564405114582485
  0
TEXT
  5
54
  8
0
 62
     7
 10
0.5785737302649494
 20
0.0568780775163766
 30
0.0
 40
0.06
  1
COPYRIGHT   1996, AEROELECTRIC CONNECTION
  0
CIRCLE
  5
55
  8
0
 62
     7
 10
0.0
 20
0.0
 30
0.0
 40
0.001
  0
TEXT
  5
56
  8
0
 62
     7
 10
0.5308441221326135
 20
10.40964213930023
 30
0.0
 40
0.06
  1
RF960104
  0
LINE
  5
57
  8
0
 62
     7
 10
8.0000000000000178
 20
0.2807598531354358
 30
0.0
 11
4.8151108171741646
 21
0.2807598531354323
 31
0.0
  0
LINE
  5
58
  8
0
 62
     7
 10
8.0000000000000178
 20
0.4431350173138782
 30
0.0
 11
4.8151108171741717
 21
0.4431350173138782
 31
0.0
  0
TEXT
  5
59
  8
0
 10
5.9158657905955314
 20
0.3275099500569922
 30
0.0
 40
0.074999519999925
  1
TITLE
 72
     1
 11
6.0497935048811122
 21
0.3275099500569922
 31
0.0
  0
TEXT
  5
5A
  8
0
 10
7.5066613611519282
 20
0.3275099500569922
 30
0.0
 40
0.074999519999925
  1
PAGE
 72
     1
 11
7.651303292580355
 21
0.3275099500569922
 31
0.0
  0
TEXT
  5
5B
  8
0
 10
7.5066613611519282
 20
0.3275099500569922
 30
0.0
 40
0.074999519999925
  1
PAGE
 72
     1
 11
7.651303292580355
 21
0.3275099500569922
 31
0.0
  0
CIRCLE
  5
5C
  8
0
 62
     7
 10
8.0158351725578321
 20
10.51969840053043
 30
0.0
 40
0.001
  0
ENDBLK
  5
5D
  8
0
  0
BLOCK
  8
0
  2
MAINBUS
 70
     0
 10
0.0
 20
0.0
 30
0.0
  3
MAINBUS
  1

  0
TEXT
  5
5F
  8
0
 10
0.0220554109667308
 20
0.1157485406604657
 30
0.0
 40
0.06
  1
MAIN
 50
270.0
  0
TEXT
  5
60
  8
0
 10
-0.0790496792124582
 20
0.1157485406604657
 30
0.0
 40
0.06
  1
BUS
 50
270.0
  0
ENDBLK
  5
61
  8
0
  0
BLOCK
  8
0
  2
SPLICE
 70
     0
 10
0.0
 20
0.0
 30
0.0
  3
SPLICE
  1

  0
POLYLINE
  5
63
  8
0
 66
     1
 10
0.0
 20
0.0
 30
0.0
 40
0.002
 41
0.002
  0
VERTEX
  5
2EB
  8
0
 10
0.0485283297775041
 20
0.0485283297775041
 30
0.0
  0
VERTEX
  5
2EC
  8
0
 10
-0.0485283297775059
 20
-0.0485283297775077
 30
0.0
  0
SEQEND
  5
2ED
  8
0
  0
POLYLINE
  5
67
  8
0
 66
     1
 10
0.0
 20
0.0
 30
0.0
 40
0.002
 41
0.002
  0
VERTEX
  5
2EE
  8
0
 10
0.0485283297775059
 20
-0.0485283297775068
 30
0.0
  0
VERTEX
  5
2EF
  8
0
 10
-0.0485283297775059
 20
0.0485283297775041
 30
0.0
  0
SEQEND
  5
2F0
  8
0
  0
POLYLINE
  5
6B
  8
0
 66
     1
 10
0.0
 20
0.0
 30
0.0
 70
     1
 40
0.03
 41
0.03
  0
VERTEX
  5
2F1
  8
0
 10
-0.0150000000000006
 20
0.0
 30
0.0
 42
1.0
  0
VERTEX
  5
2F2
  8
0
 10
0.0150000000000006
 20
0.0
 30
0.0
 42
1.0
  0
SEQEND
  5
2F3
  8
0
  0
ENDBLK
  5
6F
  8
0
  0
BLOCK
  8
0
  2
DIODE
 70
     0
 10
0.0
 20
0.0
 30
0.0
  3
DIODE
  1

  0
POLYLINE
  5
71
  8
0
 66
     1
 10
0.0
 20
0.0
 30
0.0
 40
0.15
 41
0.15
  0
VERTEX
  5
2F4
  8
0
 10
0.0
 20
0.0
 30
0.0
  0
VERTEX
  5
2F5
  8
0
 10
0.0
 20
-0.0232460018280634
 30
0.0
 40
0.0
  0
VERTEX
  5
2F6
  8
0
 10
0.0
 20
-0.1510990118823976
 30
0.0
  0
SEQEND
  5
2F7
  8
0
  0
ENDBLK
  5
76
  8
0
  0
BLOCK
  8
0
 62
     7
  2
V3
 70
     0
 10
0.0
 20
0.0
 30
0.0
  3
V3
  1

  0
POLYLINE
  5
22A
  8
0
 62
     3
 66
     1
 10
0.0
 20
0.0
 30
0.0
 70
     1
  0
VERTEX
  5
3C8
  8
0
 62
     3
 10
-0.8397590558150228
 20
-0.3192941277173187
 30
0.0
  0
VERTEX
  5
3C9
  8
0
 62
     3
 10
-0.9006514670186192
 20
-0.4247628777173187
 30
0.0
  0
VERTEX
  5
3CA
  8
0
 62
     3
 10
-0.8397590558150228
 20
-0.5302316277173187
 30
0.0
  0
VERTEX
  5
3CB
  8
0
 62
     3
 10
-0.717974233407837
 20
-0.5302316277173187
 30
0.0
  0
VERTEX
  5
3CC
  8
0
 62
     3
 10
-0.6570818222042476
 20
-0.4247628777173187
 30
0.0
  0
VERTEX
  5
3CD
  8
0
 62
     3
 10
-0.717974233407837
 20
-0.3192941277173187
 30
0.0
  0
SEQEND
  5
3CE
  8
0
 62
     3
  0
TEXT
  5
22B
  8
0
 10
0.0684265729180176
 20
0.0216971489241757
 30
0.0
 40
0.06
  1
COM
 72
     1
 11
0.1627122872037319
 21
0.0216971489241757
 31
0.0
  0
POLYLINE
  5
22C
  8
0
 66
     1
 10
0.0
 20
0.0
 30
0.0
 40
0.017999999999982
 41
0.017999999999982
  0
VERTEX
  5
3CF
  8
0
 10
-0.6058698112228882
 20
-0.5405126323829901
 30
0.0
  0
VERTEX
  5
3D0
  8
0
 10
-0.1565668106916149
 20
-0.5405126323829901
 30
0.0
  0
VERTEX
  5
3D1
  8
0
 10
-0.1565668106916149
 20
-0.3027984096338354
 30
0.0
 40
0.0
 41
0.0
  0
VERTEX
  5
3D2
  8
0
 10
-0.6058698112228882
 20
-0.3027984096338354
 30
0.0
 40
0.0
 41
0.0
  0
VERTEX
  5
3D3
  8
0
 10
-0.6058698112228882
 20
-0.5405126323829901
 30
0.0
 40
0.0
 41
0.0
  0
SEQEND
  5
3D4
  8
0
  0
TEXT
  5
22D
  8
0
 10
-0.5450218398273881
 20
-0.3941609530481269
 30
0.0
 40
0.05999999999994
  1
CANOPY
 72
     1
 11
-0.367878982684708
 21
-0.3941609530481269
 31
0.0
  0
TEXT
  5
22E
  8
0
 10
-0.5250218398274081
 20
-0.4902483657922172
 30
0.0
 40
0.05999999999994
  1
SWITCH
 72
     1
 11
-0.367878982684708
 21
-0.4902483657922172
 31
0.0
  0
TEXT
  5
22F
  8
0
 62
     7
 10
-0.8745723260734371
 20
-0.4664294155693423
 30
0.0
 40
0.084375
  1
S14
 41
0.7
 51
15.0
  7
ROMANT
 72
     1
 11
-0.7887910760734372
 21
-0.4664294155693423
 31
0.0
  0
POLYLINE
  5
230
  8
0
 66
     1
 10
0.0
 20
0.0
 30
0.0
 40
0.0110390673
 41
0.0110390673
  0
VERTEX
  5
3D5
  8
0
 10
-0.2739450989312289
 20
0.2331337135655325
 30
0.0
  0
VERTEX
  5
3D6
  8
0
 10
-0.4795713911348188
 20
0.2331337135655325
 30
0.0
  0
VERTEX
  5
3D7
  8
0
 10
-0.4795713911348188
 20
0.2084806121302059
 30
0.0
  0
SEQEND
  5
3D8
  8
0
  0
LINE
  5
231
  8
0
 10
-0.5035984491711361
 20
0.405248294970269
 30
0.0
 11
0.0454635458386576
 21
0.405248294970269
 31
0.0
  0
TEXT
  5
232
  8
0
 10
-0.6125174180742374
 20
0.4313601741228191
 30
0.0
 40
0.05999999999994
  1
CANOPY LATCHED
 72
     1
 11
-0.2168031323603472
 21
0.4313601741228191
 31
0.0
  0
TEXT
  5
233
  8
0
 10
-0.6296602752170772
 20
0.52171579591176
 30
0.0
 40
0.05999999999994
  1
DEPRESSED WHEN
 72
     1
 11
-0.2168031323603472
 21
0.52171579591176
 31
0.0
  0
POLYLINE
  5
234
  8
0
 66
     1
 10
0.0
 20
0.0
 30
0.0
 40
0.0110390673
 41
0.0110390673
  0
VERTEX
  5
3D9
  8
0
 10
-0.0625402262509312
 20
0.0
 30
0.0
  0
VERTEX
  5
3DA
  8
0
 10
-0.3971053957481345
 20
0.0684998734526019
 30
0.0
  0
SEQEND
  5
3DB
  8
0
  0
POLYLINE
  5
235
  8
0
 66
     1
 10
0.0
 20
0.0
 30
0.0
 40
0.0110390673
 41
0.0110390673
  0
VERTEX
  5
3DC
  8
0
 10
0.0
 20
-0.0528852404232403
 30
0.0
  0
VERTEX
  5
3DD
  8
0
 10
0.0
 20
-0.2384590623136944
 30
0.0
  0
VERTEX
  5
3DE
  8
0
 10
-0.4795713911348188
 20
-0.2384590623136944
 30
0.0
  0
VERTEX
  5
3DF
  8
0
 10
-0.4795713911348188
 20
-0.1945783528546876
 30
0.0
  0
SEQEND
  5
3E0
  8
0
  0
TEXT
  5
236
  8
0
 10
-0.7124028787788735
 20
-0.1159965412392729
 30
0.0
 40
0.06
  1
N.O.
 72
     1
 11
-0.6209743073503021
 21
-0.1159965412392729
 31
0.0
  0
TEXT
  5
237
  8
0
 10
-0.710974307350302
 20
0.0663674788474005
 30
0.0
 40
0.06
  1
N.C.
 72
     1
 11
-0.6209743073503021
 21
0.0663674788474005
 31
0.0
  0
LINE
  5
238
  8
0
 10
-0.3648277386573682
 20
0.1110501251690596
 30
0.0
 11
-0.3648277386573682
 21
0.1499610244477409
 31
0.0
  0
POLYLINE
  5
239
  8
0
 66
     1
 10
0.0
 20
0.0
 30
0.0
 70
     1
 40
0.03
 41
0.03
  0
VERTEX
  5
3E1
  8
0
 10
-0.4645713911348182
 20
0.1499610244477409
 30
0.0
 42
-1.0
  0
VERTEX
  5
3E2
  8
0
 10
-0.4945713911348193
 20
0.1499610244477409
 30
0.0
 42
-1.0
  0
SEQEND
  5
3E3
  8
0
  0
POLYLINE
  5
23A
  8
0
 66
     1
 10
0.0
 20
0.0
 30
0.0
 40
0.05
  0
VERTEX
  5
3E4
  8
0
 10
-0.3648277386573682
 20
-0.150032117486715
 30
0.0
  0
VERTEX
  5
3E5
  8
0
 10
-0.3648277386573682
 20
-0.107716004557993
 30
0.0
 40
0.0
  0
SEQEND
  5
3E6
  8
0
  0
POLYLINE
  5
23B
  8
0
 66
     1
 10
0.0
 20
0.0
 30
0.0
 40
0.05
  0
VERTEX
  5
3E7
  8
0
 10
-0.3648277386573682
 20
0.1110501251690596
 30
0.0
  0
VERTEX
  5
3E8
  8
0
 10
-0.3648277386573682
 20
0.0687340122403377
 30
0.0
 40
0.0
  0
SEQEND
  5
3E9
  8
0
  0
POLYLINE
  5
23C
  8
0
 66
     1
 10
0.0
 20
0.0
 30
0.0
 70
     1
 40
0.03
 41
0.03
  0
VERTEX
  5
3EA
  8
0
 10
-0.4645713911348182
 20
-0.1500389755522598
 30
0.0
 42
-1.0
  0
VERTEX
  5
3EB
  8
0
 10
-0.4945713911348193
 20
-0.1500389755522598
 30
0.0
 42
-1.0
  0
SEQEND
  5
3EC
  8
0
  0
POLYLINE
  5
23D
  8
0
 66
     1
 10
0.0
 20
0.0
 30
0.0
 40
0.0110390673
 41
0.0110390673
  0
VERTEX
  5
3ED
  8
0
 10
-0.4795713911348188
 20
0.0990954400066002
 30
0.0
  0
VERTEX
  5
3EE
  8
0
 10
-0.4795713911348188
 20
-0.1020554605623083
 30
0.0
  0
SEQEND
  5
3EF
  8
0
  0
LINE
  5
23E
  8
0
 10
-0.384299847668899
 20
-0.1500389755522598
 30
0.0
 11
-0.4795713911348188
 21
-0.1500389755522598
 31
0.0
  0
LINE
  5
23F
  8
0
 10
-0.3648277386573682
 20
0.1499610244477409
 30
0.0
 11
-0.4795713911348188
 21
0.1499610244477409
 31
0.0
  0
POLYLINE
  5
240
  8
0
 66
     1
 10
0.0
 20
0.0
 30
0.0
 40
0.0110390673
 41
0.0110390673
  0
VERTEX
  5
3F0
  8
0
 10
0.0
 20
0.0564999317003654
 30
0.0
  0
VERTEX
  5
3F1
  8
0
 10
0.0
 20
0.2331337135655325
 30
0.0
  0
VERTEX
  5
3F2
  8
0
 10
-0.1574319947606639
 20
0.2331337135655325
 30
0.0
  0
SEQEND
  5
3F3
  8
0
  0
LINE
  5
241
  8
0
 10
-0.2290674516662392
 20
0.0444692718874809
 30
0.0
 11
-0.2290674516662392
 21
0.405248294970269
 31
0.0
  0
POLYLINE
  5
242
  8
0
 66
     1
 10
0.0
 20
0.0
 30
0.0
 70
     1
 40
0.02
 41
0.02
  0
VERTEX
  5
3F4
  8
0
 10
-0.0543728410375977
 20
-0.005770079616191
 30
0.0
 42
-1.0
  0
VERTEX
  5
3F5
  8
0
 10
-0.0707076114642433
 20
0.0057700796161875
 30
0.0
 42
-1.0
  0
SEQEND
  5
3F6
  8
0
  0
LINE
  5
243
  8
0
 10
-0.062540226250924
 20
0.0
 30
0.0
 11
0.0150000000000006
 21
0.0
 31
0.0
  0
POLYLINE
  5
244
  8
0
 66
     1
 10
0.0
 20
0.0
 30
0.0
 70
     1
 40
0.03
 41
0.03
  0
VERTEX
  5
3F7
  8
0
 10
0.0150000000000006
 20
0.0
 30
0.0
 42
-1.0
  0
VERTEX
  5
3F8
  8
0
 10
-0.0150000000000006
 20
0.0
 30
0.0
 42
-1.0
  0
SEQEND
  5
3F9
  8
0
  0
ENDBLK
  5
246
  8
0
 62
     7
  0
ENDSEC
  0
SECTION
  2
ENTITIES
  0
TEXT
  5
77
  8
0
 10
-3.9263611914938932
 20
48.221356526842591
 30
0.0
 40
0.05999961599994
  1
22AWG
  0
TEXT
  5
79
  8
0
 10
-3.9357238744836041
 20
48.982605187355198
 30
0.0
 40
0.05999961599994
  1
22AWG
  0
TEXT
  5
7A
  8
0
 10
-3.9357238744836041
 20
49.349456259087383
 30
0.0
 40
0.05999961599994
  1
22AWG
  0
TEXT
  5
7B
  8
0
 10
-3.9357238744836041
 20
50.846999875361718
 30
0.0
 40
0.05999961599994
  1
22AWG
  0
TEXT
  5
7C
  8
0
 10
-3.9357238744836041
 20
51.213850947093903
 30
0.0
 40
0.05999961599994
  1
22AWG
  0
TEXT
  5
7D
  8
0
 10
-3.9263611914938932
 20
50.085751214849111
 30
0.0
 40
0.05999961599994
  1
22AWG
  0
TEXT
  5
80
  8
0
 10
-10.15799761777166
 20
44.898177177897253
 30
0.0
 40
0.1
  1
0.0
 50
270.0
 72
     1
 11
-10.15799761777166
 21
44.779129558849633
 31
0.0
  0
TEXT
  5
81
  8
0
 10
-9.9365769393465158
 20
44.953319490073589
 30
0.0
 40
0.074999519999925
  1
PAGE
 50
270.0
 72
     1
 11
-9.9365769393465158
 21
44.808677558645172
 31
0.0
  0
TEXT
  5
82
  8
0
 10
-9.9365769393465158
 20
44.953319490073589
 30
0.0
 40
0.074999519999925
  1
PAGE
 50
270.0
 72
     1
 11
-9.9365769393465158
 21
44.808677558645172
 31
0.0
  0
LINE
  5
83
  8
0
 62
     7
 10
-9.9833270362680722
 20
44.459980851225509
 30
0.0
 11
-9.9833270362680722
 21
46.884664491120738
 31
0.0
  0
LINE
  5
84
  8
0
 62
     7
 10
-9.8209518720896298
 20
45.074849503644543
 30
0.0
 11
-10.2590868894035
 21
45.074849503644543
 31
0.0
  0
TEXT
  5
85
  8
0
 10
-10.15799761777166
 20
46.69565999120146
 30
0.0
 40
0.1
  1
PITCH TRIM
 50
270.0
 72
     1
 11
-10.15799761777166
 21
46.271850467391928
 31
0.0
  0
LINE
  5
86
  8
0
 62
     7
 10
-3.9896193727304672
 20
50.876535992509659
 30
0.0
 11
-7.5092047443467003
 21
50.876535992509659
 31
0.0
  0
POLYLINE
  5
87
  8
0
 66
     1
 10
0.0
 20
0.0
 30
0.0
 40
0.017999999999982
 41
0.017999999999982
  0
VERTEX
  5
2F8
  8
0
 10
-8.1889191962515842
 20
48.923345854091657
 30
0.0
  0
VERTEX
  5
2F9
  8
0
 10
-7.786110762008267
 20
48.923345854091657
 30
0.0
  0
VERTEX
  5
2FA
  8
0
 10
-7.786110762008267
 20
49.058345854091527
 30
0.0
 40
0.0
 41
0.0
  0
VERTEX
  5
2FB
  8
0
 10
-8.1889191962515842
 20
49.058345854091527
 30
0.0
 40
0.0
 41
0.0
  0
VERTEX
  5
2FC
  8
0
 10
-8.1889191962515842
 20
48.923345854091657
 30
0.0
  0
SEQEND
  5
2FD
  8
0
  0
TEXT
  5
8E
  8
0
 10
-8.0852845376858848
 20
48.96698331067725
 30
0.0
 40
0.05999999999994
  1
TRIM
 72
     1
 11
-7.9909988234002647
 21
48.96698331067725
 31
0.0
  0
LINE
  5
8F
  8
0
 10
-7.9309289222074186
 20
48.404656426382672
 30
0.0
 11
-8.3696793951726072
 21
48.404656426382672
 31
0.0
  0
TEXT
  5
90
  8
0
 10
-7.8185974194577748
 20
50.851960000762134
 30
0.0
 40
0.05999961599994
  1
22AWG
  0
LINE
  5
91
  8
0
 10
-8.3063808153773682
 20
50.876535992509659
 30
0.0
 11
-8.1796281874012813
 21
50.876535992509659
 31
0.0
  0
INSERT
  5
92
  8
0
 62
     7
  2
SPADETERM
 10
-8.1810969989562388
 20
50.876535992509659
 30
0.0
 41
0.8
 42
0.8
 43
0.8
  0
TEXT
  5
93
  8
0
 10
-8.4499825639219601
 20
51.112611251665243
 30
0.0
 40
0.06
  1
PITCH TRIM
  0
POLYLINE
  5
94
  8
0
 62
     1
 66
     1
 10
0.0
 20
0.0
 30
0.0
 70
     1
  0
VERTEX
  5
2FE
  8
0
 62
     1
 10
-8.7277504276223574
 20
50.66443677251204
 30
0.0
  0
VERTEX
  5
2FF
  8
0
 62
     1
 10
-8.6535937999968802
 20
50.613543102305201
 30
0.0
  0
VERTEX
  5
300
  8
0
 62
     1
 10
-8.5963872938242041
 20
50.655954573428971
 30
0.0
  0
VERTEX
  5
301
  8
0
 62
     1
 10
-8.5333544465808764
 20
50.620296818686128
 30
0.0
  0
VERTEX
  5
302
  8
0
 62
     1
 10
-8.5333544465808764
 20
51.047515743631372
 30
0.0
  0
VERTEX
  5
303
  8
0
 62
     1
 10
-8.6366437810310934
 20
51.115948842611779
 30
0.0
  0
VERTEX
  5
304
  8
0
 62
     1
 10
-8.7383443047738503
 20
51.058693364523151
 30
0.0
  0
VERTEX
  5
305
  8
0
 62
     1
 10
-8.8033527185806015
 20
51.086789217343018
 30
0.0
  0
VERTEX
  5
306
  8
0
 62
     1
 10
-8.8033527185806015
 20
50.641407729086637
 30
0.0
  0
SEQEND
  5
307
  8
0
 62
     1
  0
INSERT
  5
9F
  8
0
  2
MAINBUS
 10
-8.6645119518878211
 20
50.90023376806878
 30
0.0
 50
180.0
  0
TEXT
  5
A0
  8
0
 10
-8.4415937781474888
 20
51.00365040465914
 30
0.0
 40
0.06
  1
1A
  0
INSERT
  5
A1
  8
0
 62
     7
  2
FUSE
 10
-8.420854446580865
 20
50.876535992509659
 30
0.0
 41
0.6000000000000001
 42
0.6000000000000001
 43
0.6000000000000001
  0
LINE
  5
A2
  8
0
 62
     7
 10
-8.1290212702676161
 20
50.876535992509659
 30
0.0
 11
-7.8394813722653911
 21
50.876535992509659
 31
0.0
  0
LINE
  5
A3
  8
0
 62
     7
 10
-8.6627774852530273
 20
48.404656426382672
 30
0.0
 11
-9.1649137063452741
 21
48.404656426382672
 31
0.0
  0
TEXT
  5
A5
  8
0
 10
-8.6419213458533015
 20
48.370548582817868
 30
0.0
 40
0.05999961599994
  1
22AWG
  0
LINE
  5
A8
  8
0
 10
-7.463854537229464
 20
48.54837470248988
 30
0.0
 11
-6.8567301271653456
 21
48.54837470248988
 31
0.0
  0
LINE
  5
A9
  8
0
 10
-7.463854537229464
 20
48.248374702489883
 30
0.0
 11
-6.9305705553303927
 21
48.248374702489883
 31
0.0
  0
POLYLINE
  5
AA
  8
0
 66
     1
 10
0.0
 20
0.0
 30
0.0
 40
0.0110390673
 41
0.0110390673
  0
VERTEX
  5
308
  8
0
 10
-7.9434259283642819
 20
48.341091659813507
 30
0.0
  0
VERTEX
  5
309
  8
0
 10
-7.9434259283642819
 20
48.173413678042138
 30
0.0
  0
VERTEX
  5
30A
  8
0
 10
-7.463854537229464
 20
48.173413678042138
 30
0.0
  0
VERTEX
  5
30B
  8
0
 10
-7.463854537229464
 20
48.193748664644417
 30
0.0
  0
SEQEND
  5
30C
  8
0
  0
POLYLINE
  5
B0
  8
0
 62
     7
 66
     1
 10
0.0
 20
0.0
 30
0.0
 40
0.01
 41
0.01
  0
VERTEX
  5
30D
  8
0
 62
     7
 10
-7.9434259283642819
 20
48.398413678042139
 30
0.0
  0
VERTEX
  5
30E
  8
0
 62
     7
 10
-7.6438248659217907
 20
48.397613311279883
 30
0.0
 40
0.06
 41
0.0
  0
VERTEX
  5
30F
  8
0
 62
     7
 10
-7.5519044512128248
 20
48.39736775125381
 30
0.0
 40
0.0
 41
0.0
  0
SEQEND
  5
310
  8
0
 62
     7
  0
POLYLINE
  5
B5
  8
0
 66
     1
 10
0.0
 20
0.0
 30
0.0
 40
0.0110390673
 41
0.0110390673
  0
VERTEX
  5
311
  8
0
 10
-7.9434259283642819
 20
48.450498339774832
 30
0.0
  0
VERTEX
  5
312
  8
0
 10
-7.9434259283642819
 20
48.634392278848907
 30
0.0
  0
VERTEX
  5
313
  8
0
 10
-7.463854537229464
 20
48.634392278848907
 30
0.0
  0
VERTEX
  5
314
  8
0
 10
-7.463854537229464
 20
48.605693449026077
 30
0.0
  0
SEQEND
  5
315
  8
0
  0
POLYLINE
  5
BB
  8
0
 62
     7
 66
     1
 10
0.0
 20
0.0
 30
0.0
 70
     1
 40
0.03
 41
0.03
  0
VERTEX
  5
316
  8
0
 62
     7
 10
-7.9584259283642833
 20
48.398413678042139
 30
0.0
 42
1.0
  0
VERTEX
  5
317
  8
0
 62
     7
 10
-7.9284259283642822
 20
48.398413678042139
 30
0.0
 42
1.0
  0
SEQEND
  5
318
  8
0
 62
     7
  0
LINE
  5
BF
  8
0
 10
-7.5591260806953828
 20
48.54837470248988
 30
0.0
 11
-7.463854537229464
 21
48.54837470248988
 31
0.0
  0
LINE
  5
C0
  8
0
 10
-7.5591260806953828
 20
48.248374702489883
 30
0.0
 11
-7.463854537229464
 21
48.248374702489883
 31
0.0
  0
POLYLINE
  5
C1
  8
0
 66
     1
 10
0.0
 20
0.0
 30
0.0
 40
0.0110390673
 41
0.0110390673
  0
VERTEX
  5
319
  8
0
 10
-7.463854537229464
 20
48.493265572856991
 30
0.0
  0
VERTEX
  5
31A
  8
0
 10
-7.463854537229464
 20
48.29761339894393
 30
0.0
  0
SEQEND
  5
31B
  8
0
  0
POLYLINE
  5
C5
  8
0
 62
     7
 66
     1
 10
0.0
 20
0.0
 30
0.0
 70
     1
 40
0.03
 41
0.03
  0
VERTEX
  5
31C
  8
0
 62
     7
 10
-7.4788545372294637
 20
48.248374702489883
 30
0.0
 42
1.0
  0
VERTEX
  5
31D
  8
0
 62
     7
 10
-7.4488545372294626
 20
48.248374702489883
 30
0.0
 42
1.0
  0
SEQEND
  5
31E
  8
0
 62
     7
  0
POLYLINE
  5
C9
  8
0
 66
     1
 10
0.0
 20
0.0
 30
0.0
 40
0.07
  0
VERTEX
  5
31F
  8
0
 10
-7.5591260806953828
 20
48.54837470248988
 30
0.0
  0
VERTEX
  5
320
  8
0
 10
-7.5591260806953828
 20
48.494660900478188
 30
0.0
 40
0.0
  0
SEQEND
  5
321
  8
0
  0
POLYLINE
  5
CD
  8
0
 66
     1
 10
0.0
 20
0.0
 30
0.0
 40
0.07
  0
VERTEX
  5
322
  8
0
 10
-7.5591260806953828
 20
48.248374702489883
 30
0.0
  0
VERTEX
  5
323
  8
0
 10
-7.5591260806953828
 20
48.302088504501569
 30
0.0
 40
0.0
  0
SEQEND
  5
324
  8
0
  0
POLYLINE
  5
D1
  8
0
 62
     7
 66
     1
 10
0.0
 20
0.0
 30
0.0
 70
     1
 40
0.03
 41
0.03
  0
VERTEX
  5
325
  8
0
 62
     7
 10
-7.4788545372294637
 20
48.54837470248988
 30
0.0
 42
1.0
  0
VERTEX
  5
326
  8
0
 62
     7
 10
-7.4488545372294626
 20
48.54837470248988
 30
0.0
 42
1.0
  0
SEQEND
  5
327
  8
0
 62
     7
  0
TEXT
  5
D5
  8
0
 10
-7.3582010217968667
 20
48.585013914782877
 30
0.0
 40
0.05999999999994
  1
NOSE UP
 72
     1
 11
-7.1467724503685073
 21
48.585013914782877
 31
0.0
  0
TEXT
  5
D6
  8
0
 10
-7.3532930206064302
 20
48.285949440609571
 30
0.0
 40
0.05999999999994
  1
NOSE DN
 72
     1
 11
-7.143293020606639
 21
48.285949440609571
 31
0.0
  0
LINE
  5
DA
  8
0
 10
-4.3810623600178671
 20
48.248374702489883
 30
0.0
 11
-3.9815686288726169
 21
48.248374702489883
 31
0.0
  0
TEXT
  5
DC
  8
0
 10
-6.8991930690965466
 20
48.218571534111547
 30
0.0
 40
0.05999999999994
  1
22AWG
 72
     1
 11
-6.7520502119538373
 21
48.218571534111547
 31
0.0
  0
TEXT
  5
DD
  8
0
 10
-6.8918129198793903
 20
48.51763600828486
 30
0.0
 40
0.05999999999994
  1
22AWG
 72
     1
 11
-6.74467006273668
 21
48.51763600828486
 31
0.0
  0
LINE
  5
E0
  8
0
 62
     7
 10
-4.7183948720589983
 20
49.378992376235331
 30
0.0
 11
-3.9896193727304672
 21
49.378992376235331
 31
0.0
  0
LINE
  5
E1
  8
0
 62
     7
 10
-4.7183948720590081
 20
51.243387064241837
 30
0.0
 11
-3.9896193727304672
 21
51.243387064241837
 31
0.0
  0
LINE
  5
E3
  8
0
 10
-5.6010621568182088
 20
50.112769390496403
 30
0.0
 11
-4.0022978994809177
 21
50.112769390496403
 31
0.0
  0
POLYLINE
  5
E4
  8
0
 66
     1
 10
0.0
 20
0.0
 30
0.0
 70
     1
  0
VERTEX
  5
328
  8
0
 10
-4.7183948720589983
 20
49.487133017709091
 30
0.0
  0
VERTEX
  5
329
  8
0
 10
-4.9056999574546341
 20
49.378992376235331
 30
0.0
  0
VERTEX
  5
32A
  8
0
 10
-4.7183948720589983
 20
49.270851734761571
 30
0.0
  0
SEQEND
  5
32B
  8
0
  0
TEXT
  5
E9
  8
0
 10
-4.8025094844177296
 20
49.437248480957848
 30
0.0
 40
0.06
  1
G3
 50
270.0
 72
     1
 11
-4.8025094844177296
 21
49.378677052386422
 31
0.0
  0
POLYLINE
  5
ED
  8
0
 66
     1
 10
0.0
 20
0.0
 30
0.0
 70
     1
  0
VERTEX
  5
32C
  8
0
 10
-4.7183948720590081
 20
51.351527705715611
 30
0.0
  0
VERTEX
  5
32D
  8
0
 10
-4.9056999574546429
 20
51.243387064241851
 30
0.0
  0
VERTEX
  5
32E
  8
0
 10
-4.7183948720590081
 20
51.135246422768098
 30
0.0
  0
SEQEND
  5
32F
  8
0
  0
TEXT
  5
F6
  8
0
 10
-4.8025094844177403
 20
51.301643168964361
 30
0.0
 40
0.06
  1
G3
 50
270.0
 72
     1
 11
-4.8025094844177403
 21
51.243071740392942
 31
0.0
  0
LINE
  5
F7
  8
0
 62
     7
 10
-4.256246034900105
 20
50.545712979620447
 30
0.0
 11
-4.256246034900105
 21
49.012141304503139
 31
0.0
  0
LINE
  5
F8
  8
0
 62
     7
 10
-4.256246034900105
 20
49.012141304503139
 30
0.0
 11
-3.9896193727304672
 21
49.012141304503139
 31
0.0
  0
CIRCLE
  5
F9
  8
0
 62
     7
 10
-10.264086889403499
 20
52.459980851225517
 30
0.0
 40
0.001
  0
POLYLINE
  5
FA
  8
0
 66
     1
 10
0.0
 20
0.0
 30
0.0
 40
0.01
 41
0.01
  0
VERTEX
  5
330
  8
0
 10
-3.230394549809549
 20
51.321252894994991
 30
0.0
  0
VERTEX
  5
331
  8
0
 10
-3.230394549809549
 20
51.405390821218688
 30
0.0
  0
VERTEX
  5
332
  8
0
 10
-2.4408564962561639
 20
51.405390821218688
 30
0.0
  0
VERTEX
  5
333
  8
0
 10
-2.4408564962561639
 20
51.145700494948628
 30
0.0
  0
SEQEND
  5
334
  8
0
  0
TEXT
  5
100
  8
0
 10
-1.057692204341071
 20
50.525697713496022
 30
0.0
 40
0.05999999999994
  1
ACUTATOR
 72
     1
 11
-0.8405493471984311
 21
50.525697713496022
 31
0.0
  0
POLYLINE
  5
101
  8
0
 66
     1
 10
0.0
 20
0.0
 30
0.0
 40
0.017999999999982
 41
0.017999999999982
  0
VERTEX
  5
335
  8
0
 10
-1.190501326155851
 20
50.472377239269427
 30
0.0
  0
VERTEX
  5
336
  8
0
 10
-0.483629500542234
 20
50.472377239269427
 30
0.0
  0
VERTEX
  5
337
  8
0
 10
-0.483629500542234
 20
50.704206603851631
 30
0.0
 40
0.0
 41
0.0
  0
VERTEX
  5
338
  8
0
 10
-1.190501326155851
 20
50.704206603851631
 30
0.0
 40
0.0
 41
0.0
  0
VERTEX
  5
339
  8
0
 10
-1.190501326155851
 20
50.472377239269427
 30
0.0
  0
SEQEND
  5
33A
  8
0
  0
LINE
  5
108
  8
0
 62
     7
 10
-2.3077673171620461
 20
51.064156783333061
 30
0.0
 11
-2.4055536111439508
 21
51.007699840179548
 31
0.0
  0
LINE
  5
109
  8
0
 62
     7
 10
-2.4055536111439508
 20
51.120613726486567
 30
0.0
 11
-2.3077673171620461
 21
51.064156783333061
 31
0.0
  0
TEXT
  5
10A
  8
0
 62
     7
 10
-2.3730852168920822
 20
50.630271403093523
 30
0.0
 40
0.06
  1
NOSE UP
  0
TEXT
  5
10B
  8
0
 62
     7
 10
-2.3730852168920822
 20
50.53312854595066
 30
0.0
 40
0.06
  1
RELAY (704-1)
  0
LINE
  5
10C
  8
0
 10
-2.3696156951063232
 20
49.199762095326548
 30
0.0
 11
-2.07224208603632
 21
49.199762095326548
 31
0.0
  0
LINE
  5
10D
  8
0
 62
     7
 10
-2.4055536111439508
 20
49.256219038480062
 30
0.0
 11
-2.3077673171620461
 21
49.199762095326548
 31
0.0
  0
LINE
  5
10E
  8
0
 62
     7
 10
-2.3077673171620461
 20
49.199762095326548
 30
0.0
 11
-2.4055536111439508
 21
49.143305152173042
 31
0.0
  0
POLYLINE
  5
10F
  8
0
 66
     1
 10
0.0
 20
0.0
 30
0.0
 40
0.01
 41
0.01
  0
VERTEX
  5
33B
  8
0
 10
-2.4408564962561639
 20
48.66421734567011
 30
0.0
  0
VERTEX
  5
33C
  8
0
 10
-2.4408564962561639
 20
48.937170702131709
 30
0.0
  0
SEQEND
  5
33D
  8
0
  0
POLYLINE
  5
115
  8
0
 66
     1
 10
0.0
 20
0.0
 30
0.0
 40
0.01
 41
0.01
  0
VERTEX
  5
33E
  8
0
 10
-3.2895031687948491
 20
48.248827425537193
 30
0.0
  0
VERTEX
  5
33F
  8
0
 10
-2.9051885639345909
 20
48.248827425537193
 30
0.0
 42
1.4470094406589129
  0
VERTEX
  5
340
  8
0
 10
-2.9547964010170529
 20
48.380077425537202
 30
0.0
 42
2.2152504370215329
  0
VERTEX
  5
341
  8
0
 10
-2.9547964010170529
 20
48.492577425537192
 30
0.0
 42
2.21525043702152
  0
VERTEX
  5
342
  8
0
 10
-2.9547964010170529
 20
48.605077425537189
 30
0.0
 42
2.215250437021544
  0
VERTEX
  5
343
  8
0
 10
-2.9547964010170529
 20
48.717577425537193
 30
0.0
 42
1.4470094406589129
  0
VERTEX
  5
344
  8
0
 10
-2.9051885639345909
 20
48.848827425537202
 30
0.0
  0
VERTEX
  5
345
  8
0
 10
-3.2895031687948491
 20
48.848827425537202
 30
0.0
  0
SEQEND
  5
346
  8
0
  0
POLYLINE
  5
11F
  8
0
 66
     1
 10
0.0
 20
0.0
 30
0.0
 40
0.01
 41
0.01
  0
VERTEX
  5
347
  8
0
 10
-3.2303945498095499
 20
48.121835193401161
 30
0.0
  0
VERTEX
  5
348
  8
0
 10
-2.4408564962561639
 20
48.121835193401161
 30
0.0
  0
VERTEX
  5
349
  8
0
 10
-2.4408564962561639
 20
48.69160115316518
 30
0.0
  0
SEQEND
  5
34A
  8
0
  0
LINE
  5
124
  8
0
 62
     7
 10
-3.370575618797794
 20
48.248827425537193
 30
0.0
 11
-3.2727893248158901
 21
48.19237048238368
 31
0.0
  0
LINE
  5
125
  8
0
 62
     7
 10
-3.2727893248158901
 20
48.305284368690693
 30
0.0
 11
-3.370575618797794
 21
48.248827425537193
 31
0.0
  0
LINE
  5
126
  8
0
 62
     7
 10
-3.3677643595436919
 20
48.848827425537202
 30
0.0
 11
-3.269978065561788
 21
48.792370482383681
 31
0.0
  0
LINE
  5
127
  8
0
 62
     7
 10
-3.269978065561788
 20
48.905284368690701
 30
0.0
 11
-3.3677643595436919
 21
48.848827425537202
 31
0.0
  0
LINE
  5
128
  8
0
 62
     7
 10
-3.3708212136467801
 20
48.248827425537193
 30
0.0
 11
-3.5992442272313929
 21
48.248827425537193
 31
0.0
  0
LINE
  5
129
  8
0
 10
-3.3677643595436919
 20
48.848827425537202
 30
0.0
 11
-3.5356696432154049
 21
48.848827425537202
 31
0.0
  0
LINE
  5
12C
  8
0
 62
     7
 10
-3.3059159815994161
 20
48.248827425537193
 30
0.0
 11
-3.2081296876175109
 21
48.19237048238368
 31
0.0
  0
POLYLINE
  5
12D
  8
0
 66
     1
 10
0.0
 20
0.0
 30
0.0
 40
0.01
 41
0.01
  0
VERTEX
  5
34B
  8
0
 10
-3.2303945498095499
 20
48.169484677920771
 30
0.0
  0
VERTEX
  5
34C
  8
0
 10
-3.2303945498095499
 20
48.121835193401161
 30
0.0
  0
SEQEND
  5
34D
  8
0
  0
POLYLINE
  5
131
  8
0
 66
     1
 10
0.0
 20
0.0
 30
0.0
 40
0.01
 41
0.01
  0
VERTEX
  5
34E
  8
0
 10
-3.2303945498095499
 20
48.757161561915787
 30
0.0
  0
VERTEX
  5
34F
  8
0
 10
-3.2303945498095499
 20
48.333610663687601
 30
0.0
  0
SEQEND
  5
350
  8
0
  0
LINE
  5
135
  8
0
 62
     7
 10
-3.2081296876175109
 20
48.905284368690701
 30
0.0
 11
-3.3059159815994161
 21
48.848827425537202
 31
0.0
  0
LINE
  5
136
  8
0
 62
     7
 10
-3.3059159815994161
 20
48.848827425537202
 30
0.0
 11
-3.2081296876175109
 21
48.792370482383681
 31
0.0
  0
LINE
  5
137
  8
0
 62
     7
 10
-3.2081296876175109
 20
48.305284368690693
 30
0.0
 11
-3.3059159815994161
 21
48.248827425537193
 31
0.0
  0
POLYLINE
  5
13A
  8
0
 66
     1
 10
0.0
 20
0.0
 30
0.0
 40
0.01
 41
0.01
  0
VERTEX
  5
351
  8
0
 10
-2.7551885639345919
 20
48.848827425537202
 30
0.0
  0
VERTEX
  5
352
  8
0
 10
-2.7551885639345919
 20
48.248827425537193
 30
0.0
  0
SEQEND
  5
353
  8
0
  0
POLYLINE
  5
13F
  8
0
 66
     1
 10
0.0
 20
0.0
 30
0.0
 40
0.01
 41
0.01
  0
VERTEX
  5
354
  8
0
 10
-2.7926885639345942
 20
48.848827425537202
 30
0.0
  0
VERTEX
  5
355
  8
0
 10
-2.7926885639345942
 20
48.248827425537193
 30
0.0
  0
SEQEND
  5
356
  8
0
  0
POLYLINE
  5
144
  8
0
 66
     1
 10
0.0
 20
0.0
 30
0.0
 40
0.01
 41
0.01
  0
VERTEX
  5
357
  8
0
 10
-3.2895031687948491
 20
50.113222113543713
 30
0.0
  0
VERTEX
  5
358
  8
0
 10
-2.9051885639345909
 20
50.113222113543713
 30
0.0
 42
1.4470094406589129
  0
VERTEX
  5
359
  8
0
 10
-2.9547964010170529
 20
50.244472113543701
 30
0.0
 42
2.2152504370215329
  0
VERTEX
  5
35A
  8
0
 10
-2.9547964010170529
 20
50.356972113543712
 30
0.0
 42
2.21525043702152
  0
VERTEX
  5
35B
  8
0
 10
-2.9547964010170529
 20
50.469472113543702
 30
0.0
 42
2.215250437021544
  0
VERTEX
  5
35C
  8
0
 10
-2.9547964010170529
 20
50.581972113543713
 30
0.0
 42
1.4470094406589129
  0
VERTEX
  5
35D
  8
0
 10
-2.9051885639345909
 20
50.713222113543701
 30
0.0
  0
VERTEX
  5
35E
  8
0
 10
-3.2895031687948491
 20
50.713222113543701
 30
0.0
  0
SEQEND
  5
35F
  8
0
  0
POLYLINE
  5
14E
  8
0
 66
     1
 10
0.0
 20
0.0
 30
0.0
 40
0.02
 41
0.02
  0
VERTEX
  5
360
  8
0
 10
-2.653562482131119
 20
51.068231247466962
 30
0.0
  0
VERTEX
  5
361
  8
0
 10
-3.103562482131121
 20
51.143231247466971
 30
0.0
  0
SEQEND
  5
362
  8
0
  0
POLYLINE
  5
152
  8
0
 66
     1
 10
0.0
 20
0.0
 30
0.0
 40
0.01
 41
0.01
  0
VERTEX
  5
363
  8
0
 10
-3.2303945498095499
 20
49.986229881407667
 30
0.0
  0
VERTEX
  5
364
  8
0
 10
-2.4408564962561639
 20
49.986229881407667
 30
0.0
  0
VERTEX
  5
365
  8
0
 10
-2.4408564962561639
 20
50.555995841171679
 30
0.0
  0
SEQEND
  5
366
  8
0
  0
TEXT
  5
158
  8
0
 62
     7
 10
-3.1270447723630461
 20
49.706955404006052
 30
0.0
 40
0.06
  1
NOSE DN
  0
TEXT
  5
159
  8
0
 62
     7
 10
-3.1270447723630461
 20
49.609812546863203
 30
0.0
 40
0.06
  1
RELAY (S704-1)
  0
POLYLINE
  5
15A
  8
0
 66
     1
 10
0.0
 20
0.0
 30
0.0
 40
0.01
 41
0.01
  0
VERTEX
  5
367
  8
0
 10
-3.230394549809549
 20
49.456858206988478
 30
0.0
  0
VERTEX
  5
368
  8
0
 10
-3.230394549809549
 20
49.540996133212182
 30
0.0
  0
VERTEX
  5
369
  8
0
 10
-2.4408564962561639
 20
49.540996133212182
 30
0.0
  0
VERTEX
  5
36A
  8
0
 10
-2.4408564962561639
 20
49.281305806942122
 30
0.0
  0
SEQEND
  5
36B
  8
0
  0
POLYLINE
  5
160
  8
0
 66
     1
 10
0.0
 20
0.0
 30
0.0
 40
0.02
 41
0.02
  0
VERTEX
  5
36C
  8
0
 10
-2.653562482131119
 20
49.203836559460463
 30
0.0
  0
VERTEX
  5
36D
  8
0
 10
-3.103562482131121
 20
49.278836559460451
 30
0.0
  0
SEQEND
  5
36E
  8
0
  0
LINE
  5
165
  8
0
 62
     7
 10
-3.2727893248158901
 20
50.169679056697213
 30
0.0
 11
-3.370575618797794
 21
50.113222113543713
 31
0.0
  0
LINE
  5
166
  8
0
 62
     7
 10
-3.2081296876175109
 20
50.169679056697213
 30
0.0
 11
-3.3059159815994161
 21
50.113222113543713
 31
0.0
  0
LINE
  5
167
  8
0
 62
     7
 10
-3.370575618797794
 20
50.113222113543713
 30
0.0
 11
-3.2727893248158901
 21
50.056765170390193
 31
0.0
  0
LINE
  5
168
  8
0
 62
     7
 10
-3.2705415767018562
 20
49.326730688039127
 30
0.0
 11
-3.3683278706837601
 21
49.383187631192641
 31
0.0
  0
LINE
  5
169
  8
0
 62
     7
 10
-3.3683278706837601
 20
49.383187631192641
 30
0.0
 11
-3.2705415767018562
 21
49.43964457434614
 31
0.0
  0
LINE
  5
16A
  8
0
 62
     7
 10
-3.3683278706837601
 20
49.016336559460463
 30
0.0
 11
-3.2705415767018562
 21
49.072793502613962
 31
0.0
  0
LINE
  5
16B
  8
0
 62
     7
 10
-3.2705415767018562
 20
48.959879616306942
 30
0.0
 11
-3.3683278706837601
 21
49.016336559460463
 31
0.0
  0
LINE
  5
16C
  8
0
 10
-3.3683278706837601
 20
49.016336559460463
 30
0.0
 11
-3.609233476934985
 21
49.016336559460463
 31
0.0
  0
LINE
  5
16D
  8
0
 62
     7
 10
-3.370575618797794
 20
50.113222113543713
 30
0.0
 11
-3.5989986323824068
 21
50.113222113543713
 31
0.0
  0
LINE
  5
16E
  8
0
 10
-3.3683278706837601
 20
49.383187631192641
 30
0.0
 11
-3.609233476934985
 21
49.383187631192641
 31
0.0
  0
LINE
  5
170
  8
0
 62
     7
 10
-3.3059159815994161
 20
50.113222113543713
 30
0.0
 11
-3.2081296876175109
 21
50.056765170390193
 31
0.0
  0
POLYLINE
  5
171
  8
0
 66
     1
 10
0.0
 20
0.0
 30
0.0
 40
0.01
 41
0.01
  0
VERTEX
  5
36F
  8
0
 10
-3.2303945498095499
 20
50.033879365927277
 30
0.0
  0
VERTEX
  5
370
  8
0
 10
-3.2303945498095499
 20
49.986229881407667
 30
0.0
  0
SEQEND
  5
371
  8
0
  0
POLYLINE
  5
175
  8
0
 66
     1
 10
0.0
 20
0.0
 30
0.0
 41
0.075
  0
VERTEX
  5
372
  8
0
 10
-3.0660624821311191
 20
49.308187631192638
 30
0.0
  0
VERTEX
  5
373
  8
0
 10
-3.0660624821311191
 20
49.383187631192641
 30
0.0
 40
0.075
  0
SEQEND
  5
374
  8
0
  0
LINE
  5
179
  8
0
 62
     7
 10
-3.2200357718856729
 20
49.43964457434614
 30
0.0
 11
-3.3178220658675781
 21
49.383187631192641
 31
0.0
  0
LINE
  5
17A
  8
0
 62
     7
 10
-3.3178220658675781
 20
49.383187631192641
 30
0.0
 11
-3.2200357718856729
 21
49.326730688039127
 31
0.0
  0
LINE
  5
17B
  8
0
 10
-3.0660624821311191
 20
49.383187631192641
 30
0.0
 11
-3.3178220658675781
 21
49.383187631192641
 31
0.0
  0
LINE
  5
17C
  8
0
 10
-3.3149295952152511
 20
49.016336559460463
 30
0.0
 11
-3.317822065867567
 21
49.016336559460463
 31
0.0
  0
POLYLINE
  5
17F
  8
0
 66
     1
 10
0.0
 20
0.0
 30
0.0
 41
0.075
  0
VERTEX
  5
375
  8
0
 10
-3.0660624821311191
 20
49.091336559460451
 30
0.0
  0
VERTEX
  5
376
  8
0
 10
-3.0660624821311191
 20
49.016336559460463
 30
0.0
 40
0.075
  0
SEQEND
  5
377
  8
0
  0
LINE
  5
183
  8
0
 62
     7
 10
-3.2200357718856729
 20
48.959879616306942
 30
0.0
 11
-3.3178220658675781
 21
49.016336559460463
 31
0.0
  0
LINE
  5
184
  8
0
 62
     7
 10
-3.3178220658675781
 20
49.016336559460463
 30
0.0
 11
-3.2200357718856729
 21
49.072793502613962
 31
0.0
  0
LINE
  5
185
  8
0
 10
-3.0660624821311191
 20
49.016336559460463
 30
0.0
 11
-3.3178220658675781
 21
49.016336559460463
 31
0.0
  0
POLYLINE
  5
186
  8
0
 66
     1
 10
0.0
 20
0.0
 30
0.0
 40
0.01
 41
0.01
  0
VERTEX
  5
378
  8
0
 10
-3.230394549809549
 20
49.096002288967291
 30
0.0
  0
VERTEX
  5
379
  8
0
 10
-3.230394549809549
 20
49.302346876848453
 30
0.0
  0
SEQEND
  5
37A
  8
0
  0
LINE
  5
18A
  8
0
 62
     7
 10
-3.2705415767018562
 20
51.19112537604564
 30
0.0
 11
-3.3683278706837601
 21
51.247582319199161
 31
0.0
  0
LINE
  5
18B
  8
0
 62
     7
 10
-3.3683278706837601
 20
51.247582319199161
 30
0.0
 11
-3.2705415767018562
 21
51.30403926235266
 31
0.0
  0
LINE
  5
18C
  8
0
 62
     7
 10
-3.3683278706837601
 20
50.880731247466969
 30
0.0
 11
-3.2705415767018562
 21
50.937188190620468
 31
0.0
  0
LINE
  5
18D
  8
0
 62
     7
 10
-3.2705415767018562
 20
50.824274304313448
 30
0.0
 11
-3.3683278706837601
 21
50.880731247466969
 31
0.0
  0
LINE
  5
18E
  8
0
 62
     7
 10
-3.2705415767018562
 20
51.304039262352667
 30
0.0
 11
-3.3683278706837601
 21
51.247582319199161
 31
0.0
  0
LINE
  5
18F
  8
0
 62
     7
 10
-3.3677643595436919
 20
50.713222113543701
 30
0.0
 11
-3.269978065561788
 21
50.656765170390187
 31
0.0
  0
LINE
  5
190
  8
0
 62
     7
 10
-3.269978065561788
 20
50.769679056697221
 30
0.0
 11
-3.3677643595436919
 21
50.713222113543701
 31
0.0
  0
LINE
  5
191
  8
0
 10
-3.3683278706837601
 20
50.880731247466969
 30
0.0
 11
-3.609233476934985
 21
50.880731247466969
 31
0.0
  0
LINE
  5
192
  8
0
 10
-3.3683278706837601
 20
51.247582319199161
 30
0.0
 11
-3.609233476934985
 21
51.247582319199161
 31
0.0
  0
LINE
  5
193
  8
0
 10
-3.3667060128962798
 20
50.713222113543701
 30
0.0
 11
-3.5047793688808948
 21
50.713222113543708
 31
0.0
  0
POLYLINE
  5
194
  8
0
 66
     1
 10
0.0
 20
0.0
 30
0.0
 41
0.075
  0
VERTEX
  5
37B
  8
0
 10
-3.0660624821311191
 20
51.172582319199151
 30
0.0
  0
VERTEX
  5
37C
  8
0
 10
-3.0660624821311191
 20
51.247582319199161
 30
0.0
 40
0.075
  0
SEQEND
  5
37D
  8
0
  0
LINE
  5
198
  8
0
 62
     7
 10
-3.2200357718856729
 20
51.30403926235266
 30
0.0
 11
-3.3178220658675781
 21
51.247582319199161
 31
0.0
  0
LINE
  5
199
  8
0
 62
     7
 10
-3.3178220658675781
 20
51.247582319199161
 30
0.0
 11
-3.2200357718856729
 21
51.19112537604564
 31
0.0
  0
LINE
  5
19A
  8
0
 10
-3.0660624821311191
 20
51.247582319199161
 30
0.0
 11
-3.3178220658675781
 21
51.247582319199161
 31
0.0
  0
LINE
  5
19B
  8
0
 10
-3.3149295952152511
 20
50.880731247466969
 30
0.0
 11
-3.317822065867567
 21
50.880731247466969
 31
0.0
  0
POLYLINE
  5
19E
  8
0
 66
     1
 10
0.0
 20
0.0
 30
0.0
 41
0.075
  0
VERTEX
  5
37E
  8
0
 10
-3.0660624821311191
 20
50.955731247466957
 30
0.0
  0
VERTEX
  5
37F
  8
0
 10
-3.0660624821311191
 20
50.880731247466969
 30
0.0
 40
0.075
  0
SEQEND
  5
380
  8
0
  0
LINE
  5
1A2
  8
0
 62
     7
 10
-3.2200357718856729
 20
50.824274304313448
 30
0.0
 11
-3.3178220658675781
 21
50.880731247466969
 31
0.0
  0
LINE
  5
1A3
  8
0
 62
     7
 10
-3.3178220658675781
 20
50.880731247466969
 30
0.0
 11
-3.2200357718856729
 21
50.937188190620468
 31
0.0
  0
LINE
  5
1A4
  8
0
 10
-3.0660624821311191
 20
50.880731247466969
 30
0.0
 11
-3.3178220658675781
 21
50.880731247466969
 31
0.0
  0
POLYLINE
  5
1A5
  8
0
 66
     1
 10
0.0
 20
0.0
 30
0.0
 40
0.01
 41
0.01
  0
VERTEX
  5
381
  8
0
 10
-3.230394549809549
 20
50.960396976973797
 30
0.0
  0
VERTEX
  5
382
  8
0
 10
-3.230394549809549
 20
51.166741564854973
 30
0.0
  0
SEQEND
  5
383
  8
0
  0
POLYLINE
  5
1A9
  8
0
 66
     1
 10
0.0
 20
0.0
 30
0.0
 40
0.01
 41
0.01
  0
VERTEX
  5
384
  8
0
 10
-3.2303945498095499
 20
50.621556249922307
 30
0.0
  0
VERTEX
  5
385
  8
0
 10
-3.2303945498095499
 20
50.198005351694107
 30
0.0
  0
SEQEND
  5
386
  8
0
  0
LINE
  5
1AD
  8
0
 62
     7
 10
-3.2081296876175109
 20
50.769679056697221
 30
0.0
 11
-3.3059159815994161
 21
50.713222113543701
 31
0.0
  0
LINE
  5
1AE
  8
0
 62
     7
 10
-3.3059159815994161
 20
50.713222113543701
 30
0.0
 11
-3.2081296876175109
 21
50.656765170390187
 31
0.0
  0
POLYLINE
  5
1B1
  8
0
 66
     1
 10
0.0
 20
0.0
 30
0.0
 40
0.01
 41
0.01
  0
VERTEX
  5
387
  8
0
 10
-2.7551885639345919
 20
50.713222113543701
 30
0.0
  0
VERTEX
  5
388
  8
0
 10
-2.7551885639345919
 20
50.113222113543713
 30
0.0
  0
SEQEND
  5
389
  8
0
  0
POLYLINE
  5
1B5
  8
0
 66
     1
 10
0.0
 20
0.0
 30
0.0
 40
0.01
 41
0.01
  0
VERTEX
  5
38A
  8
0
 10
-2.7926885639345942
 20
50.713222113543701
 30
0.0
  0
VERTEX
  5
38B
  8
0
 10
-2.7926885639345942
 20
50.113222113543713
 30
0.0
  0
SEQEND
  5
38C
  8
0
  0
POLYLINE
  5
1BA
  8
0
 66
     1
 10
0.0
 20
0.0
 30
0.0
 70
     1
 40
0.0375
 41
0.0375
  0
VERTEX
  5
38D
  8
0
 10
-2.6499730058931981
 20
49.199762095326548
 30
0.0
 42
1.0
  0
VERTEX
  5
38E
  8
0
 10
-2.6124730058931971
 20
49.199762095326548
 30
0.0
 42
1.0
  0
SEQEND
  5
38F
  8
0
  0
LINE
  5
1C1
  8
0
 62
     7
 10
-2.4674019890882271
 20
49.256219038480062
 30
0.0
 11
-2.3696156951063232
 21
49.199762095326548
 31
0.0
  0
POLYLINE
  5
1C2
  8
0
 66
     1
 10
0.0
 20
0.0
 30
0.0
 40
0.01
 41
0.01
  0
VERTEX
  5
390
  8
0
 10
-2.6312230058932009
 20
49.199762095326548
 30
0.0
  0
VERTEX
  5
391
  8
0
 10
-2.3794634221567428
 20
49.199762095326548
 30
0.0
  0
SEQEND
  5
392
  8
0
  0
POLYLINE
  5
1C6
  8
0
 66
     1
 10
0.0
 20
0.0
 30
0.0
 40
0.01
 41
0.01
  0
VERTEX
  5
393
  8
0
 10
-2.4408564962561639
 20
49.117179821175291
 30
0.0
  0
VERTEX
  5
394
  8
0
 10
-2.4408564962561639
 20
48.926581925441532
 30
0.0
  0
SEQEND
  5
395
  8
0
  0
LINE
  5
1CB
  8
0
 62
     7
 10
-2.3696156951063232
 20
49.199762095326548
 30
0.0
 11
-2.4674019890882271
 21
49.143305152173042
 31
0.0
  0
POLYLINE
  5
1CD
  8
0
 66
     1
 10
0.0
 20
0.0
 30
0.0
 70
     1
 40
0.0375
 41
0.0375
  0
VERTEX
  5
396
  8
0
 10
-2.6499730058931981
 20
51.064156783333061
 30
0.0
 42
1.0
  0
VERTEX
  5
397
  8
0
 10
-2.6124730058931971
 20
51.064156783333061
 30
0.0
 42
1.0
  0
SEQEND
  5
398
  8
0
  0
POLYLINE
  5
1D6
  8
0
 66
     1
 10
0.0
 20
0.0
 30
0.0
 40
0.01
 41
0.01
  0
VERTEX
  5
399
  8
0
 10
-2.4408564962561639
 20
50.528612033676623
 30
0.0
  0
VERTEX
  5
39A
  8
0
 10
-2.4408564962561639
 20
50.801565390138229
 30
0.0
  0
SEQEND
  5
39B
  8
0
  0
LINE
  5
1DB
  8
0
 62
     7
 10
-2.4674019890882271
 20
51.120613726486567
 30
0.0
 11
-2.3696156951063232
 21
51.064156783333061
 31
0.0
  0
POLYLINE
  5
1DC
  8
0
 66
     1
 10
0.0
 20
0.0
 30
0.0
 40
0.01
 41
0.01
  0
VERTEX
  5
39C
  8
0
 10
-2.6312230058932009
 20
51.064156783333061
 30
0.0
  0
VERTEX
  5
39D
  8
0
 10
-2.3794634221567428
 20
51.064156783333061
 30
0.0
  0
SEQEND
  5
39E
  8
0
  0
POLYLINE
  5
1E0
  8
0
 66
     1
 10
0.0
 20
0.0
 30
0.0
 40
0.01
 41
0.01
  0
VERTEX
  5
39F
  8
0
 10
-2.4408564962561639
 20
50.981574509181797
 30
0.0
  0
VERTEX
  5
3A0
  8
0
 10
-2.4408564962561639
 20
50.790976613448052
 30
0.0
  0
SEQEND
  5
3A1
  8
0
  0
LINE
  5
1E5
  8
0
 62
     7
 10
-2.3696156951063232
 20
51.064156783333061
 30
0.0
 11
-2.4674019890882271
 21
51.007699840179548
 31
0.0
  0
LINE
  5
1E6
  8
0
 10
-1.726226567184391
 20
49.199762095326548
 30
0.0
 11
-1.3205258852192989
 21
49.199762095326548
 31
0.0
  0
LINE
  5
1E7
  8
0
 10
-1.7613186177710221
 20
51.064156783333061
 30
0.0
 11
-1.3205258852193
 21
51.064156783333061
 31
0.0
  0
TEXT
  5
1E8
  8
0
 62
     7
 10
-2.034812260349157
 20
49.176365217458773
 30
0.0
 40
0.06
  1
22AWG
  0
TEXT
  5
1E9
  8
0
 62
     7
 10
-2.034812260349157
 20
51.040759905465293
 30
0.0
 40
0.06
  1
22AWG
  0
LINE
  5
1EA
  8
0
 10
-2.3096985206494809
 20
51.064156783333061
 30
0.0
 11
-2.0639073287085341
 21
51.064156783333061
 31
0.0
  0
CIRCLE
  5
1EB
  8
0
 10
-1.320525885219292
 20
50.200997891140183
 30
0.0
 40
0.1885224552843354
  0
LINE
  5
1EC
  8
0
 10
-1.2705258852192951
 20
49.93097674138901
 30
0.0
 11
-1.370525885219303
 21
49.93097674138901
 31
0.0
  0
LINE
  5
1ED
  8
0
 62
     7
 10
-1.3205258852192989
 20
49.408246004575837
 30
0.0
 11
-1.3205258852192989
 21
49.199762095326548
 31
0.0
  0
LINE
  5
1EE
  8
0
 62
     7
 10
-1.3205258852192989
 20
49.93097674138901
 30
0.0
 11
-1.3205258852192989
 21
49.680910323112741
 31
0.0
  0
TEXT
  5
1EF
  8
0
 10
-1.3495078446233919
 20
49.679204081898959
 30
0.0
 40
0.06
  1
+DN
 50
270.0
  0
LINE
  5
1F0
  8
0
 10
-1.370525885219303
 20
49.93097674138901
 30
0.0
 11
-1.370525885219303
 21
50.019226836936177
 31
0.0
  0
INSERT
  5
1F1
  8
0
 62
     7
  2
SPLICE
 10
-1.4695983907025441
 20
49.199762095326548
 30
0.0
  0
LINE
  5
1F2
  8
0
 10
-1.2705258852192951
 20
49.93097674138901
 30
0.0
 11
-1.2705258852192951
 21
50.019226836936177
 31
0.0
  0
LINE
  5
1F3
  8
0
 10
-1.2705258852192951
 20
50.471019040891342
 30
0.0
 11
-1.370525885219303
 21
50.471019040891342
 31
0.0
  0
LINE
  5
1F4
  8
0
 62
     7
 10
-1.3205258852192989
 20
50.832878913292269
 30
0.0
 11
-1.3205258852193
 21
51.064156783333061
 31
0.0
  0
TEXT
  5
1F5
  8
0
 10
-1.3569270385255079
 20
50.828654303887532
 30
0.0
 40
0.06
  1
+UP
 50
270.0
  0
LINE
  5
1F6
  8
0
 62
     7
 10
-1.3205258852192989
 20
50.471019040891342
 30
0.0
 11
-1.3205258852192989
 21
50.567084431913543
 31
0.0
  0
LINE
  5
1F7
  8
0
 10
-1.370525885219303
 20
50.471019040891342
 30
0.0
 11
-1.370525885219303
 21
50.382768945344168
 31
0.0
  0
INSERT
  5
1F8
  8
0
  2
SPLICE
 10
-1.4722106721668871
 20
51.064156783333061
 30
0.0
  0
LINE
  5
1F9
  8
0
 10
-1.2705258852192951
 20
50.471019040891342
 30
0.0
 11
-1.2705258852192951
 21
50.382768945344168
 31
0.0
  0
TEXT
  5
1FA
  8
0
 10
0.1308590154563802
 20
44.6934706554201
 30
0.0
 40
0.06
  1
V2
 50
270.0
  0
CIRCLE
  5
1FB
  8
0
 62
     7
 10
0.2556115111269293
 20
44.444145678667688
 30
0.0
 40
0.001
  0
TEXT
  5
1FC
  8
0
 10
-0.934835061484051
 20
50.61284406043734
 30
0.0
 40
0.05999999999994
  1
TRIM
 72
     1
 11
-0.8405493471984311
 21
50.61284406043734
 31
0.0
  0
LINE
  5
1FD
  8
0
 10
-6.5629153567642717
 20
48.54837470248988
 30
0.0
 11
-6.2004419791439869
 21
48.54837470248988
 31
0.0
  0
LINE
  5
204
  8
0
 62
     7
 10
-8.6627774852530273
 20
47.456449576550419
 30
0.0
 11
-9.1649137063452741
 21
47.456449576550419
 31
0.0
  0
POLYLINE
  5
206
  8
0
 62
     7
 66
     1
 10
0.0
 20
0.0
 30
0.0
 70
     1
 40
0.03
 41
0.03
  0
VERTEX
  5
3A2
  8
0
 62
     7
 10
-7.4788545372294637
 20
47.30016785265763
 30
0.0
 42
1.0
  0
VERTEX
  5
3A3
  8
0
 62
     7
 10
-7.4488545372294626
 20
47.30016785265763
 30
0.0
 42
1.0
  0
SEQEND
  5
3A4
  8
0
 62
     7
  0
POLYLINE
  5
207
  8
0
 66
     1
 10
0.0
 20
0.0
 30
0.0
 40
0.0110390673
 41
0.0110390673
  0
VERTEX
  5
3A5
  8
0
 10
-7.9434259283642819
 20
47.392884809981247
 30
0.0
  0
VERTEX
  5
3A6
  8
0
 10
-7.9434259283642819
 20
47.225206828209878
 30
0.0
  0
VERTEX
  5
3A7
  8
0
 10
-7.463854537229464
 20
47.225206828209878
 30
0.0
  0
VERTEX
  5
3A8
  8
0
 10
-7.463854537229464
 20
47.245541814812157
 30
0.0
  0
SEQEND
  5
3A9
  8
0
  0
POLYLINE
  5
208
  8
0
 66
     1
 10
0.0
 20
0.0
 30
0.0
 40
0.0110390673
 41
0.0110390673
  0
VERTEX
  5
3AA
  8
0
 10
-7.9434259283642819
 20
47.502291489942571
 30
0.0
  0
VERTEX
  5
3AB
  8
0
 10
-7.9434259283642819
 20
47.686185429016653
 30
0.0
  0
VERTEX
  5
3AC
  8
0
 10
-7.463854537229464
 20
47.686185429016653
 30
0.0
  0
VERTEX
  5
3AD
  8
0
 10
-7.463854537229464
 20
47.657486599193831
 30
0.0
  0
SEQEND
  5
3AE
  8
0
  0
POLYLINE
  5
209
  8
0
 62
     7
 66
     1
 10
0.0
 20
0.0
 30
0.0
 40
0.01
 41
0.01
  0
VERTEX
  5
3AF
  8
0
 62
     7
 10
-7.9434259283642819
 20
47.450206828209879
 30
0.0
  0
VERTEX
  5
3B0
  8
0
 62
     7
 10
-7.6438248659217907
 20
47.44940646144763
 30
0.0
 40
0.06
 41
0.0
  0
VERTEX
  5
3B1
  8
0
 62
     7
 10
-7.5519044512128248
 20
47.44916090142155
 30
0.0
 40
0.0
 41
0.0
  0
SEQEND
  5
3B2
  8
0
 62
     7
  0
LINE
  5
20A
  8
0
 10
-7.9309289222074186
 20
47.456449576550419
 30
0.0
 11
-8.3696793951726072
 21
47.456449576550419
 31
0.0
  0
TEXT
  5
20B
  8
0
 10
-8.6419213458533015
 20
47.422341732985622
 30
0.0
 40
0.05999961599994
  1
22AWG
  0
POLYLINE
  5
20C
  8
0
 62
     7
 66
     1
 10
0.0
 20
0.0
 30
0.0
 70
     1
 40
0.03
 41
0.03
  0
VERTEX
  5
3B3
  8
0
 62
     7
 10
-7.9584259283642833
 20
47.450206828209879
 30
0.0
 42
1.0
  0
VERTEX
  5
3B4
  8
0
 62
     7
 10
-7.9284259283642822
 20
47.450206828209879
 30
0.0
 42
1.0
  0
SEQEND
  5
3B5
  8
0
 62
     7
  0
TEXT
  5
20D
  8
0
 10
-8.3425610029843273
 20
47.827028747322679
 30
0.0
 40
0.05999999999994
  1
TRIM
 72
     1
 11
-8.2482752886987072
 21
47.827028747322679
 31
0.0
  0
POLYLINE
  5
20E
  8
0
 66
     1
 10
0.0
 20
0.0
 30
0.0
 40
0.017999999999982
 41
0.017999999999982
  0
VERTEX
  5
3B6
  8
0
 10
-8.4461956615500267
 20
47.783391290737093
 30
0.0
  0
VERTEX
  5
3B7
  8
0
 10
-8.0433872273067095
 20
47.783391290737093
 30
0.0
  0
VERTEX
  5
3B8
  8
0
 10
-8.0433872273067095
 20
47.91839129073697
 30
0.0
 40
0.0
 41
0.0
  0
VERTEX
  5
3B9
  8
0
 10
-8.4461956615500267
 20
47.91839129073697
 30
0.0
 40
0.0
 41
0.0
  0
VERTEX
  5
3BA
  8
0
 10
-8.4461956615500267
 20
47.783391290737093
 30
0.0
  0
SEQEND
  5
3BB
  8
0
  0
TEXT
  5
20F
  8
0
 10
-7.3532930206064302
 20
47.337742590777317
 30
0.0
 40
0.05999999999994
  1
NOSE DN
 72
     1
 11
-7.143293020606639
 21
47.337742590777317
 31
0.0
  0
TEXT
  5
210
  8
0
 10
-7.3582010217968667
 20
47.636807064950617
 30
0.0
 40
0.05999999999994
  1
NOSE UP
 72
     1
 11
-7.1467724503685073
 21
47.636807064950617
 31
0.0
  0
LINE
  5
211
  8
0
 10
-7.463854537229464
 20
47.30016785265763
 30
0.0
 11
-6.3504419791439872
 21
47.30016785265763
 31
0.0
  0
LINE
  5
212
  8
0
 10
-7.463854537229464
 20
47.60016785265762
 30
0.0
 11
-6.2004419791439851
 21
47.60016785265762
 31
0.0
  0
POLYLINE
  5
213
  8
0
 62
     7
 66
     1
 10
0.0
 20
0.0
 30
0.0
 70
     1
 40
0.03
 41
0.03
  0
VERTEX
  5
3BC
  8
0
 62
     7
 10
-7.4788545372294637
 20
47.60016785265762
 30
0.0
 42
1.0
  0
VERTEX
  5
3BD
  8
0
 62
     7
 10
-7.4488545372294626
 20
47.60016785265762
 30
0.0
 42
1.0
  0
SEQEND
  5
3BE
  8
0
 62
     7
  0
POLYLINE
  5
214
  8
0
 66
     1
 10
0.0
 20
0.0
 30
0.0
 40
0.07
  0
VERTEX
  5
3BF
  8
0
 10
-7.5591260806953828
 20
47.30016785265763
 30
0.0
  0
VERTEX
  5
3C0
  8
0
 10
-7.5591260806953828
 20
47.353881654669323
 30
0.0
 40
0.0
  0
SEQEND
  5
3C1
  8
0
  0
POLYLINE
  5
215
  8
0
 66
     1
 10
0.0
 20
0.0
 30
0.0
 40
0.07
  0
VERTEX
  5
3C2
  8
0
 10
-7.5591260806953828
 20
47.60016785265762
 30
0.0
  0
VERTEX
  5
3C3
  8
0
 10
-7.5591260806953828
 20
47.546454050645941
 30
0.0
 40
0.0
  0
SEQEND
  5
3C4
  8
0
  0
POLYLINE
  5
216
  8
0
 66
     1
 10
0.0
 20
0.0
 30
0.0
 40
0.0110390673
 41
0.0110390673
  0
VERTEX
  5
3C5
  8
0
 10
-7.463854537229464
 20
47.545058723024731
 30
0.0
  0
VERTEX
  5
3C6
  8
0
 10
-7.463854537229464
 20
47.349406549111677
 30
0.0
  0
SEQEND
  5
3C7
  8
0
  0
LINE
  5
217
  8
0
 10
-7.5591260806953828
 20
47.30016785265763
 30
0.0
 11
-7.463854537229464
 21
47.30016785265763
 31
0.0
  0
LINE
  5
218
  8
0
 10
-7.5591260806953828
 20
47.60016785265762
 30
0.0
 11
-7.463854537229464
 21
47.60016785265762
 31
0.0
  0
LINE
  5
219
  8
0
 10
-7.3263534523252378
 20
48.098374702489878
 30
0.0
 11
-6.9305705553303927
 21
48.098374702489878
 31
0.0
  0
LINE
  5
21A
  8
0
 10
-7.3088220732936788
 20
48.698374702489879
 30
0.0
 11
-6.6090261191511441
 21
48.698374702489879
 31
0.0
  0
TEXT
  5
21B
  8
0
 10
-6.596865485104324
 20
48.668363630730191
 30
0.0
 40
0.05999999999994
  1
22AWG
 72
     1
 11
-6.4497226279616138
 21
48.668363630730191
 31
0.0
  0
TEXT
  5
21C
  8
0
 10
-6.8991930690965466
 20
48.074695167231923
 30
0.0
 40
0.05999999999994
  1
22AWG
 72
     1
 11
-6.7520502119538373
 21
48.074695167231923
 31
0.0
  0
LINE
  5
21D
  8
0
 62
     7
 10
-7.463854537229464
 20
48.248374702489883
 30
0.0
 11
-7.3263534523252378
 21
48.098374702489878
 31
0.0
  0
LINE
  5
21E
  8
0
 62
     7
 10
-7.463854537229464
 20
48.54837470248988
 30
0.0
 11
-7.3088220732936788
 21
48.698374702489879
 31
0.0
  0
LINE
  5
220
  8
0
 10
-6.5649775160454196
 20
48.098374702489878
 30
0.0
 11
-6.3504419791439881
 21
48.098374702489878
 31
0.0
  0
LINE
  5
221
  8
0
 62
     7
 10
-6.3504419791439881
 20
48.098374702489878
 30
0.0
 11
-6.3504419791439872
 21
47.30016785265763
 31
0.0
  0
LINE
  5
222
  8
0
 62
     7
 10
-6.2004419791439869
 20
48.54837470248988
 30
0.0
 11
-6.2004419791439851
 21
47.60016785265762
 31
0.0
  0
LINE
  5
223
  8
0
 62
     7
 10
-3.3683278706837601
 20
50.880731247466969
 30
0.0
 11
-3.5047793688808948
 21
50.801250765975809
 31
0.0
  0
LINE
  5
224
  8
0
 62
     7
 10
-3.5047793688808948
 20
50.801250765975809
 30
0.0
 11
-3.5047793688808948
 21
50.713222113543708
 31
0.0
  0
LINE
  5
227
  8
0
 10
-6.2736026984245692
 20
48.698374702489858
 30
0.0
 11
-5.601062156818208
 21
48.698374702489858
 31
0.0
  0
LINE
  5
249
  8
0
 62
     7
 10
-3.3683278706837601
 20
49.016336559460463
 30
0.0
 11
-3.5356696432154049
 21
48.942590178485702
 31
0.0
  0
LINE
  5
24A
  8
0
 62
     7
 10
-3.5356696432154049
 20
48.942590178485702
 30
0.0
 11
-3.5356696432154049
 21
48.848827425537202
 31
0.0
  0
LINE
  5
267
  8
0
 62
     7
 10
-6.5377102682297252
 20
48.248374702489883
 30
0.0
 11
-4.3810623600178671
 21
48.248374702489883
 31
0.0
  0
LINE
  5
269
  8
0
 62
     7
 10
-4.3810623600178671
 20
48.248374702489883
 30
0.0
 11
-4.3810623600178671
 21
48.248374702489883
 31
0.0
  0
LINE
  5
26A
  8
0
 62
     7
 10
-5.601062156818208
 20
48.698374702489858
 30
0.0
 11
-5.6010621568182088
 21
50.112769390496403
 31
0.0
  0
TEXT
  5
26D
  8
0
 62
     7
 10
-8.4794778031848708
 20
49.11239450404382
 30
0.0
 40
0.06
  1
REAR SEAT or STICK
 72
     1
 11
-8.0023349460420121
 21
49.11239450404382
 31
0.0
  0
TEXT
  5
26E
  8
0
 62
     7
 10
-8.7838971256261686
 20
47.95614772677461
 30
0.0
 40
0.06
  1
FRONT SEAT or PANEL
 72
     1
 11
-8.2596114113404546
 21
47.95614772677461
 31
0.0
  0
LINE
  5
28A
  8
0
 62
     7
 10
-9.8209518720896316
 20
45.074849503644543
 30
0.0
 11
-10.2590868894035
 21
45.074849503644543
 31
0.0
  0
LINE
  5
28B
  8
0
 62
     7
 10
-9.8209518720896298
 20
47.644870034051351
 30
0.0
 11
-10.2590868894035
 21
47.644870034051358
 31
0.0
  0
POLYLINE
  5
28C
  8
0
 62
     3
 66
     1
 10
0.0
 20
0.0
 30
0.0
 70
     1
  0
VERTEX
  5
3FA
  8
0
 62
     3
 10
-10.2590868894035
 20
44.459980851225517
 30
0.0
  0
VERTEX
  5
3FB
  8
0
 62
     3
 10
0.2409131105964928
 20
44.459980851225517
 30
0.0
  0
VERTEX
  5
3FC
  8
0
 62
     3
 10
0.2409131105964946
 20
51.959980851225517
 30
0.0
  0
VERTEX
  5
3FD
  8
0
 62
     3
 10
-10.2590868894035
 20
51.959980851225517
 30
0.0
  0
SEQEND
  5
3FE
  8
0
 62
     3
  0
TEXT
  5
28D
  8
0
 62
     7
 10
-10.15744513230619
 20
51.322872250954283
 30
0.0
 40
0.06
  1
C
 50
270.0
  0
CIRCLE
  5
28E
  8
0
 62
     7
 10
-10.126057964889339
 20
51.290532146975252
 30
0.0
 40
0.0564405114582485
  0
TEXT
  5
28F
  8
0
 62
     7
 10
-10.20720881188713
 20
51.881407120960567
 30
0.0
 40
0.06
  1
COPYRIGHT   2002, AEROELECTRIC CONNECTION
 50
270.0
  0
CIRCLE
  5
290
  8
0
 62
     7
 10
-10.264086889403499
 20
52.459980851225517
 30
0.0
 40
0.001
  0
TEXT
  5
291
  8
0
 62
     7
 10
0.1455552498967307
 20
51.92913672909291
 30
0.0
 40
0.06
  1
AEC
 50
270.0
  0
LINE
  5
292
  8
0
 62
     7
 10
-9.9833270362680722
 20
44.459980851225509
 30
0.0
 11
-9.9833270362680757
 21
47.644870034051351
 31
0.0
  0
LINE
  5
293
  8
0
 62
     7
 10
-9.8209518720896316
 20
44.459980851225509
 30
0.0
 11
-9.8209518720896298
 21
47.644870034051351
 31
0.0
  0
TEXT
  5
294
  8
0
 10
-9.9365769393465158
 20
46.544115060629998
 30
0.0
 40
0.074999519999925
  1
TITLE
 50
270.0
 72
     1
 11
-9.9365769393465158
 21
46.410187346344422
 31
0.0
  0
TEXT
  5
295
  8
0
 10
-9.9365769393465158
 20
44.953319490073589
 30
0.0
 40
0.074999519999925
  1
PAGE
 50
270.0
 72
     1
 11
-9.9365769393465158
 21
44.808677558645172
 31
0.0
  0
TEXT
  5
296
  8
0
 10
-9.9365769393465158
 20
44.953319490073589
 30
0.0
 40
0.074999519999925
  1
PAGE
 50
270.0
 72
     1
 11
-9.9365769393465158
 21
44.808677558645172
 31
0.0
  0
CIRCLE
  5
297
  8
0
 62
     7
 10
0.2556115111269293
 20
44.444145678667688
 30
0.0
 40
0.001
  0
LINE
  5
2C3
  8
0
 62
     7
 10
-3.3677643595436919
 20
50.713222113543701
 30
0.0
 11
-3.5042158577408271
 21
50.633741632052548
 31
0.0
  0
LINE
  5
2C4
  8
0
 62
     7
 10
-3.5042158577408271
 20
50.633741632052548
 30
0.0
 11
-3.5042158577408271
 21
50.545712979620447
 31
0.0
  0
LINE
  5
2C5
  8
0
 62
     7
 10
-3.5042158577408271
 20
50.545712979620447
 30
0.0
 11
-4.256246034900105
 21
50.545712979620447
 31
0.0
  0
POLYLINE
  5
2C6
  8
0
 66
     1
 10
0.0
 20
0.0
 30
0.0
 70
     1
  0
VERTEX
  5
3FF
  8
0
 10
-9.1649137063452741
 20
48.51279706785644
 30
0.0
  0
VERTEX
  5
400
  8
0
 10
-9.3522187917409099
 20
48.404656426382672
 30
0.0
  0
VERTEX
  5
401
  8
0
 10
-9.1649137063452741
 20
48.296515784908919
 30
0.0
  0
SEQEND
  5
402
  8
0
  0
TEXT
  5
2C7
  8
0
 10
-9.2490283187040063
 20
48.462912531105196
 30
0.0
 40
0.06
  1
G3
 50
270.0
 72
     1
 11
-9.2490283187040063
 21
48.40434110253377
 31
0.0
  0
POLYLINE
  5
2C8
  8
0
 66
     1
 10
0.0
 20
0.0
 30
0.0
 70
     1
  0
VERTEX
  5
403
  8
0
 10
-9.1649137063452741
 20
47.564590218024179
 30
0.0
  0
VERTEX
  5
404
  8
0
 10
-9.3522187917409099
 20
47.456449576550419
 30
0.0
  0
VERTEX
  5
405
  8
0
 10
-9.1649137063452741
 20
47.348308935076673
 30
0.0
  0
SEQEND
  5
406
  8
0
  0
TEXT
  5
2C9
  8
0
 10
-9.2490283187040063
 20
47.514705681272943
 30
0.0
 40
0.06
  1
G3
 50
270.0
 72
     1
 11
-9.2490283187040063
 21
47.456134252701517
 31
0.0
  0
ENDSEC
  0
EOF
